  0
SECTION
  2
HEADER
  9
$ACADVER
  1
AC1015
  9
$ACADMAINTVER
 70
     6
  9
$DWGCODEPAGE
  3
ANSI_1252
  9
$INSBASE
 10
0.0
 20
0.0
 30
0.0
  9
$EXTMIN
 10
-0.939693
 20
-0.984808
 30
0.0
  9
$EXTMAX
 10
13.0
 20
12.984808
 30
0.0
  9
$LIMMIN
 10
0.0
 20
0.0
  9
$LIMMAX
 10
0.0
 20
0.0
  9
$ORTHOMODE
 70
     0
  9
$REGENMODE
 70
     1
  9
$FILLMODE
 70
     1
  9
$QTEXTMODE
 70
     0
  9
$MIRRTEXT
 70
     1
  9
$LTSCALE
 40
1.0
  9
$ATTMODE
 70
     1
  9
$TEXTSIZE
 40
0.2
  9
$TRACEWID
 40
0.05
  9
$TEXTSTYLE
  7
Standard
  9
$CLAYER
  8
0
  9
$CELTYPE
  6
Continuous
  9
$CECOLOR
 62
   256
  9
$CELTSCALE
 40
1.0
  9
$DISPSILH
 70
     0
  9
$DIMSCALE
 40
1.0
  9
$DIMASZ
 40
0.18
  9
$DIMEXO
 40
0.0625
  9
$DIMDLI
 40
0.38
  9
$DIMRND
 40
0.0
  9
$DIMDLE
 40
0.0
  9
$DIMEXE
 40
0.18
  9
$DIMTP
 40
0.0
  9
$DIMTM
 40
0.0
  9
$DIMTXT
 40
0.18
  9
$DIMCEN
 40
0.09
  9
$DIMTSZ
 40
0.0
  9
$DIMTOL
 70
     0
  9
$DIMLIM
 70
     0
  9
$DIMTIH
 70
     1
  9
$DIMTOH
 70
     1
  9
$DIMSE1
 70
     0
  9
$DIMSE2
 70
     0
  9
$DIMTAD
 70
     0
  9
$DIMZIN
 70
     0
  9
$DIMBLK
  1

  9
$DIMASO
 70
     1
  9
$DIMSHO
 70
     1
  9
$DIMPOST
  1

  9
$DIMAPOST
  1

  9
$DIMALT
 70
     0
  9
$DIMALTD
 70
     2
  9
$DIMALTF
 40
25.4
  9
$DIMLFAC
 40
1.0
  9
$DIMTOFL
 70
     0
  9
$DIMTVP
 40
0.0
  9
$DIMTIX
 70
     0
  9
$DIMSOXD
 70
     0
  9
$DIMSAH
 70
     0
  9
$DIMBLK1
  1

  9
$DIMBLK2
  1

  9
$DIMSTYLE
  2
Standard
  9
$DIMCLRD
 70
     0
  9
$DIMCLRE
 70
     0
  9
$DIMCLRT
 70
     0
  9
$DIMTFAC
 40
1.0
  9
$DIMGAP
 40
0.09
  9
$DIMJUST
 70
     0
  9
$DIMSD1
 70
     0
  9
$DIMSD2
 70
     0
  9
$DIMTOLJ
 70
     1
  9
$DIMTZIN
 70
     0
  9
$DIMALTZ
 70
     0
  9
$DIMALTTZ
 70
     0
  9
$DIMUPT
 70
     0
  9
$DIMDEC
 70
     4
  9
$DIMTDEC
 70
     4
  9
$DIMALTU
 70
     2
  9
$DIMALTTD
 70
     2
  9
$DIMTXSTY
  7
Standard
  9
$DIMAUNIT
 70
     0
  9
$DIMADEC
 70
     0
  9
$DIMALTRND
 40
0.0
  9
$DIMAZIN
 70
     0
  9
$DIMDSEP
 70
    46
  9
$DIMATFIT
 70
     3
  9
$DIMFRAC
 70
     0
  9
$DIMLDRBLK
  1

  9
$DIMLUNIT
 70
     2
  9
$DIMLWD
 70
    -2
  9
$DIMLWE
 70
    -2
  9
$DIMTMOVE
 70
     0
  9
$LUNITS
 70
     2
  9
$LUPREC
 70
     4
  9
$SKETCHINC
 40
0.1
  9
$FILLETRAD
 40
0.0
  9
$AUNITS
 70
     0
  9
$AUPREC
 70
     0
  9
$MENU
  1
acad
  9
$ELEVATION
 40
0.0
  9
$PELEVATION
 40
0.0
  9
$THICKNESS
 40
0.0
  9
$LIMCHECK
 70
     0
  9
$CHAMFERA
 40
0.0
  9
$CHAMFERB
 40
0.0
  9
$CHAMFERC
 40
0.0
  9
$CHAMFERD
 40
0.0
  9
$SKPOLY
 70
     0
  9
$TDCREATE
 40
2455749.386840278
  9
$TDUCREATE
 40
0.000000000
  9
$TDUPDATE
 40
2455749.386840278
  9
$TDUUPDATE
 40
0.000000000
  9
$TDINDWG
 40
0.0000000000
  9
$TDUSRTIMER
 40
0.0000000000
  9
$USRTIMER
 70
     1
  9
$ANGBASE
 50
0.0
  9
$ANGDIR
 70
     0
  9
$PDMODE
 70
     0
  9
$PDSIZE
 40
0.0
  9
$PLINEWID
 40
0.0
  9
$SPLFRAME
 70
     0
  9
$SPLINETYPE
 70
     6
  9
$SPLINESEGS
 70
     8
  9
$HANDSEED
  5
88
  9
$SURFTAB1
 70
     6
  9
$SURFTAB2
 70
     6
  9
$SURFTYPE
 70
     6
  9
$SURFU
 70
     6
  9
$SURFV
 70
     6
  9
$UCSBASE
  2

  9
$UCSNAME
  2

  9
$UCSORG
 10
0.0
 20
0.0
 30
0.0
  9
$UCSXDIR
 10
1.0
 20
0.0
 30
0.0
  9
$UCSYDIR
 10
0.0
 20
1.0
 30
0.0
  9
$UCSORTHOREF
  2

  9
$UCSORTHOVIEW
 70
     0
  9
$UCSORGTOP
 10
0.0
 20
0.0
 30
0.0
  9
$UCSORGBOTTOM
 10
0.0
 20
0.0
 30
0.0
  9
$UCSORGLEFT
 10
0.0
 20
0.0
 30
0.0
  9
$UCSORGRIGHT
 10
0.0
 20
0.0
 30
0.0
  9
$UCSORGFRONT
 10
0.0
 20
0.0
 30
0.0
  9
$UCSORGBACK
 10
0.0
 20
0.0
 30
0.0
  9
$PUCSBASE
  2

  9
$PUCSNAME
  2

  9
$PUCSORG
 10
0.0
 20
0.0
 30
0.0
  9
$PUCSXDIR
 10
1.0
 20
0.0
 30
0.0
  9
$PUCSYDIR
 10
0.0
 20
1.0
 30
0.0
  9
$PUCSORTHOREF
  2

  9
$PUCSORTHOVIEW
 70
     0
  9
$PUCSORGTOP
 10
0.0
 20
0.0
 30
0.0
  9
$PUCSORGBOTTOM
 10
0.0
 20
0.0
 30
0.0
  9
$PUCSORGLEFT
 10
0.0
 20
0.0
 30
0.0
  9
$PUCSORGRIGHT
 10
0.0
 20
0.0
 30
0.0
  9
$PUCSORGFRONT
 10
0.0
 20
0.0
 30
0.0
  9
$PUCSORGBACK
 10
0.0
 20
0.0
 30
0.0
  9
$USERI1
 70
     0
  9
$USERI2
 70
     0
  9
$USERI3
 70
     0
  9
$USERI4
 70
     0
  9
$USERI5
 70
     0
  9
$USERR1
 40
0.0
  9
$USERR2
 40
0.0
  9
$USERR3
 40
0.0
  9
$USERR4
 40
0.0
  9
$USERR5
 40
0.0
  9
$WORLDVIEW
 70
     1
  9
$SHADEDGE
 70
     3
  9
$SHADEDIF
 70
    70
  9
$TILEMODE
 70
     1
  9
$MAXACTVP
 70
    16
  9
$PINSBASE
 10
0.0
 20
0.0
 30
0.0
  9
$PLIMCHECK
 70
     0
  9
$PEXTMIN
 10
1.000000E+20
 20
1.000000E+20
 30
1.000000E+20
  9
$PEXTMAX
 10
-1.000000E+20
 20
-1.000000E+20
 30
-1.000000E+20
  9
$PLIMMIN
 10
0.0
 20
0.0
  9
$PLIMMAX
 10
12.0
 20
9.0
  9
$UNITMODE
 70
     0
  9
$VISRETAIN
 70
     0
  9
$PLINEGEN
 70
     1
  9
$PSLTSCALE
 70
     0
  9
$TREEDEPTH
 70
  3020
  9
$CMLSTYLE
  2
Standard
  9
$CMLJUST
 70
     0
  9
$CMLSCALE
 40
1.0
  9
$PROXYGRAPHICS
 70
     0
  9
$MEASUREMENT
 70
     0
  9
$CELWEIGHT
370
     0
  9
$ENDCAPS
280
     0
  9
$JOINSTYLE
280
     0
  9
$LWDISPLAY
290
     0
  9
$INSUNITS
 70
     0
  9
$HYPERLINKBASE
  1

  9
$STYLESHEET
  1

  9
$XEDIT
290
     1
  9
$CEPSNTYPE
380
     0
  9
$PSTYLEMODE
290
     1
  9
$FINGERPRINTGUID
  2

  9
$VERSIONGUID
  2

  9
$EXTNAMES
290
     1
  9
$PSVPSCALE
 40
0.0
  0
ENDSEC
  0
SECTION
  2
CLASSES
  0
CLASS
  1
LWPOLYLINE
  2
AcDbPolyline
  3
AutoCAD 2000
 90
        0
280
     0
281
     1
  0
CLASS
  1
IMAGE
  2
AcDbRasterImage
  3
ISM
 90
      127
280
     0
281
     1
  0
CLASS
  1
OLE2FRAME
  2
AcDbOle2Frame
  3
AutoCAD 2000
 90
        0
280
     0
281
     1
  0
CLASS
  1
HATCH
  2
AcDbHatch
  3
AutoCAD 2000
 90
        0
280
     0
281
     1
  0
CLASS
  1
DICTIONARYVAR
  2
AcDbDictionaryVar
  3
AutoCAD 2000
 90
        0
280
     0
281
     0
  0
CLASS
  1
RASTERVARIABLES
  2
AcDbRasterVariables
  3
ISM
 90
        0
280
     0
281
     0
  0
CLASS
  1
IMAGEDEF
  2
AcDbRasterImageDef
  3
ISM
 90
        0
280
     0
281
     0
  0
CLASS
  1
IMAGEDEF_REACTOR
  2
AcDbRasterImageDefReactor
  3
ISM
 90
        1
280
     0
281
     0
  0
CLASS
  1
IDBUFFER
  2
AcDbIdBuffer
  3
AutoCAD 2000
 90
        0
280
     0
281
     0
  0
CLASS
  1
SPATIAL_FILTER
  2
AcDbSpatialFilter
  3
AutoCAD 2000
 90
        0
280
     0
281
     0
  0
CLASS
  1
XRECORD
  2
AcDbXrecord
  3
AutoCAD 2000
 90
        0
280
     0
281
     0
  0
CLASS
  1
SORTENTSTABLE
  2
AcDbSortentsTable
  3
AutoCAD 2000
 90
        0
280
     0
281
     0
  0
CLASS
  1
LAYER_INDEX
  2
AcDbLayerIndex
  3
AutoCAD 2000
 90
        0
280
     0
281
     0
  0
CLASS
  1
SPATIAL_INDEX
  2
AcDbSpatialIndex
  3
AutoCAD 2000
 90
        0
280
     0
281
     0
  0
CLASS
  1
OBJECT_PTR
  2
CAseDLPNTableRecord
  3
"ASE-LPNTableRecord"
 90
        1
280
     0
281
     0
  0
CLASS
  1
LAYOUT
  2
AcDbLayout
  3
AutoCAD 2000
 90
        0
280
     0
281
     0
  0
CLASS
  1
PLOTSETTINGS
  2
AcDbPlotSettings
  3
AutoCAD 2000
 90
        0
280
     0
281
     0
  0
CLASS
  1
ACDBDICTIONARYWDFLT
  2
AcDbDictionaryWithDefault
  3
AutoCAD 2000
 90
        0
280
     0
281
     0
  0
CLASS
  1
ACDBPLACEHOLDER
  2
AcDbPlaceHolder
  3
AutoCAD 2000
 90
        0
280
     0
281
     0
  0
CLASS
  1
VBA_PROJECT
  2
AcDbVbaProject
  3
acadvba
 90
        0
280
     0
281
     0
  0
CLASS
  1
WIPEOUT
  2
AcDbWipeout
  3
WipeOut|AutoCAD Express Tool|expresstools@autodesk.com
 90
      127
280
     0
281
     1
  0
CLASS
  1
WIPEOUTVARIABLES
  2
AcDbWipeoutVariables
  3
WipeOut|AutoCAD Express Tool|expresstools@autodesk.com
 90
        0
280
     0
281
     0
  0
CLASS
  1
RTEXT
  2
RText
  3
RText|AutoCAD Express Tool|expresstools@autodesk.com
 90
        0
280
     0
281
     1
  0
CLASS
  1
ARCALIGNEDTEXT
  2
AcDbArcAlignedText
  3
ATEXT|AutoCAD Express Tool|expresstools@autodesk.com
 90
        0
280
     0
281
     1
  0
ENDSEC
  0
SECTION
  2
TABLES
  0
TABLE
  2
VPORT
  5
7
100
AcDbSymbolTable
 70
     1
  0
VPORT
  5
15
100
AcDbSymbolTableRecord
100
AcDbViewportTableRecord
  2
*ACTIVE
 70
     0
 10
0.0
 20
0.0
 11
1.0
 21
1.0
 12
6.591288
 22
4.579184
 13
0.0
 23
0.0
 14
1.0
 24
1.0
 15
0.0
 25
0.0
 16
0.0
 26
0.0
 36
1.0
 17
0.0
 27
0.0
 37
0.0
 40
9.158369
 41
0.688564
 42
50.0
 43
0.0
 44
0.0
 50
0.0
 51
0.0
 71
     0
 72
   100
 73
     1
 74
     1
 75
     0
 76
     0
 77
     0
 78
     0
281
     0
 65
     0
110
0.0
120
0.0
130
0.0
111
1.0
121
0.0
131
0.0
112
0.0
122
1.0
132
0.0
345
0
346
0
 79
     0
146
0.0
  0
ENDTAB
  0
TABLE
  2
LTYPE
  5
4
100
AcDbSymbolTable
 70
     6
  0
LTYPE
  5
11
100
AcDbSymbolTableRecord
100
AcDbLinetypeTableRecord
  2
ByBlock
 70
    64
  3

 72
    65
 73
     0
 40
0.0
  0
LTYPE
  5
12
100
AcDbSymbolTableRecord
100
AcDbLinetypeTableRecord
  2
ByLayer
 70
    64
  3

 72
    65
 73
     0
 40
0.0
  0
LTYPE
  5
13
100
AcDbSymbolTableRecord
100
AcDbLinetypeTableRecord
  2
Continuous
 70
    64
  3
Solid line
 72
    65
 73
     0
 40
0.0
  0
LTYPE
  5
24
100
AcDbSymbolTableRecord
100
AcDbLinetypeTableRecord
  2
solid
 70
    64
  3

 72
    65
 73
     0
 40
0.0
  0
LTYPE
  5
25
100
AcDbSymbolTableRecord
100
AcDbLinetypeTableRecord
  2
dashed
 70
    64
  3

 72
    65
 73
     0
 40
0.0
  0
LTYPE
  5
26
100
AcDbSymbolTableRecord
100
AcDbLinetypeTableRecord
  2
center
 70
    64
  3

 72
    65
 73
     0
 40
0.0
  0
ENDTAB
  0
TABLE
  2
LAYER
  5
2
100
AcDbSymbolTable
 70
     3
  0
LAYER
  5
14
100
AcDbSymbolTableRecord
100
AcDbLayerTableRecord
  2
0
 70
     0
 62
     7
  6
Continuous
290
     1
370
    -3
390
1D
  0
LAYER
  5
27
100
AcDbSymbolTableRecord
100
AcDbLayerTableRecord
  2
UNISLIDE
 70
     0
 62
     1
  6
solid
290
     1
370
    -3
390
1D
  0
LAYER
  5
74
100
AcDbSymbolTableRecord
100
AcDbLayerTableRecord
  2
1
 70
     0
 62
     1
  6
solid
290
     1
370
    -3
390
1D
  0
ENDTAB
  0
TABLE
  2
STYLE
  5
3
100
AcDbSymbolTable
 70
     1
  0
STYLE
  5
17
100
AcDbSymbolTableRecord
100
AcDbTextStyleTableRecord
  2
Standard
 70
     0
 40
0.0
 41
1.0
 50
0.0
 71
     0
 42
0.0
  3
txt
  4

  0
ENDTAB
  0
TABLE
  2
VIEW
  5
5
100
AcDbSymbolTable
 70
     0
  0
ENDTAB
  0
TABLE
  2
UCS
  5
6
100
AcDbSymbolTable
 70
     0
  0
ENDTAB
  0
TABLE
  2
APPID
  5
8
100
AcDbSymbolTable
 70
     1
  0
APPID
  5
16
100
AcDbSymbolTableRecord
100
AcDbRegAppTableRecord
  2
ACAD
 70
     0
  0
ENDTAB
  0
TABLE
  2
DIMSTYLE
  5
9
100
AcDbSymbolTable
 70
     1
100
AcDbDimStyleTable
 71
     0
  0
DIMSTYLE
105
18
100
AcDbSymbolTableRecord
100
AcDbDimStyleTableRecord
  2
Standard
 70
     0
  3

  4

 40
1.0
 41
0.18
 42
0.0625
 43
0.38
 44
0.18
 45
0.0
 46
0.0
 47
0.0
 48
0.0
 71
     0
 72
     0
 73
     1
 74
     1
 75
     0
 76
     0
 77
     0
 78
     0
 79
     0
140
0.18
141
0.09
142
0.0
143
25.4
144
1.0
145
0.0
146
1.0
147
0.09
148
0.0
170
     0
171
     2
172
     0
173
     0
174
     0
175
     0
176
     0
177
     0
178
     0
179
     0
271
     4
272
     4
273
     2
274
     2
275
     0
276
     0
277
     2
278
    46
279
     0
280
     0
281
     0
282
     0
283
     1
284
     0
285
     0
286
     0
288
     0
289
     3
340
17
341
0
342
0
343
0
344
0
371
    -2
372
    -2
  0
ENDTAB
  0
TABLE
  2
BLOCK_RECORD
  5
1
100
AcDbSymbolTable
 70
     0
  0
BLOCK_RECORD
  5
A
100
AcDbSymbolTableRecord
100
AcDbBlockTableRecord
  2
*MODEL_SPACE
340
20
  0
BLOCK_RECORD
  5
B
100
AcDbSymbolTableRecord
100
AcDbBlockTableRecord
  2
*PAPER_SPACE
340
21
  0
ENDTAB
  0
ENDSEC
  0
SECTION
  2
BLOCKS
  0
BLOCK
  5
D
100
AcDbEntity
  8
0
390
0
100
AcDbBlockBegin
  2
*MODEL_SPACE
 70
     0
 10
0.0
 20
0.0
 30
0.0
  3
*MODEL_SPACE
  1

  0
ENDBLK
  5
E
100
AcDbEntity
  8
0
390
0
100
AcDbBlockEnd
  0
BLOCK
  5
F
100
AcDbEntity
 67
     1
  8
0
390
0
100
AcDbBlockBegin
  2
*PAPER_SPACE
 70
     0
 10
0.0
 20
0.0
 30
0.0
  3
*PAPER_SPACE
  1

  0
ENDBLK
  5
10
100
AcDbEntity
 67
     1
  8
0
390
0
100
AcDbBlockEnd
  0
ENDSEC
  0
SECTION
  2
ENTITIES
  0
LINE
  5
28
100
AcDbEntity
  8
UNISLIDE
390
0
  6
solid
 62
     3
100
AcDbLine
 10
19.109861
 20
7.817116
 30
0.0
 11
19.109861
 21
8.442116
 31
0.0
  0
LINE
  5
29
100
AcDbEntity
  8
UNISLIDE
390
0
  6
solid
 62
     3
100
AcDbLine
 10
18.745857
 20
7.817116
 30
0.0
 11
19.109861
 21
7.817116
 31
0.0
  0
LINE
  5
2A
100
AcDbEntity
  8
UNISLIDE
390
0
  6
solid
 62
     3
100
AcDbLine
 10
18.745857
 20
8.442116
 30
0.0
 11
19.109861
 21
8.442116
 31
0.0
  0
CIRCLE
  5
2B
100
AcDbEntity
  8
UNISLIDE
390
0
  6
solid
 62
     3
100
AcDbCircle
 10
18.933861
 20
8.129616
 30
0.0
 40
0.1
210
0.0
220
0.0
230
1.0
  0
CIRCLE
  5
2C
100
AcDbEntity
  8
UNISLIDE
390
0
  6
solid
 62
     3
100
AcDbCircle
 10
18.933861
 20
8.129616
 30
0.0
 40
0.125
210
0.0
220
0.0
230
1.0
  0
LINE
  5
2D
100
AcDbEntity
  8
UNISLIDE
390
0
  6
solid
 62
     3
100
AcDbLine
 10
18.645851
 20
9.379616
 30
0.0
 11
18.645851
 21
8.819054
 31
0.0
  0
LINE
  5
2E
100
AcDbEntity
  8
UNISLIDE
390
0
  6
solid
 62
     3
100
AcDbLine
 10
18.645851
 20
9.379616
 30
0.0
 11
19.387851
 21
9.379616
 31
0.0
  0
LINE
  5
2F
100
AcDbEntity
  8
UNISLIDE
390
0
  6
solid
 62
     3
100
AcDbLine
 10
18.995857
 20
8.959366
 30
0.0
 11
19.003853
 21
8.973221
 31
0.0
  0
LINE
  5
30
100
AcDbEntity
  8
UNISLIDE
390
0
  6
solid
 62
     3
100
AcDbLine
 10
19.003883
 20
8.973198
 30
0.0
 11
18.995857
 21
8.959366
 31
0.0
  0
LINE
  5
31
100
AcDbEntity
  8
UNISLIDE
390
0
  6
solid
 62
     3
100
AcDbLine
 10
18.950188
 20
9.004143
 30
0.0
 11
18.942162
 21
8.99012
 31
0.0
  0
ARC
  5
32
100
AcDbEntity
  8
UNISLIDE
390
0
  6
solid
 62
     3
100
AcDbCircle
 10
18.977094
 20
8.988724
 30
0.0
 40
0.030998
210
0.0
220
0.0
230
1.0
100
AcDbArc
 50
329.909028
 51
510.170916
  0
LINE
  5
33
100
AcDbEntity
  8
UNISLIDE
390
0
  6
solid
 62
     3
100
AcDbLine
 10
18.995857
 20
8.691612
 30
0.0
 11
19.104856
 21
8.691612
 31
0.0
  0
ARC
  5
34
100
AcDbEntity
  8
UNISLIDE
390
0
  6
solid
 62
     3
100
AcDbCircle
 10
19.104857
 20
8.675612
 30
0.0
 40
0.016
210
0.0
220
0.0
230
1.0
100
AcDbArc
 50
359.998106
 51
450.001894
  0
LINE
  5
35
100
AcDbEntity
  8
UNISLIDE
390
0
  6
solid
 62
     3
100
AcDbLine
 10
18.645851
 20
6.879616
 30
0.0
 11
18.645851
 21
7.440178
 31
0.0
  0
LINE
  5
36
100
AcDbEntity
  8
UNISLIDE
390
0
  6
solid
 62
     3
100
AcDbLine
 10
18.645851
 20
6.879616
 30
0.0
 11
19.387851
 21
6.879616
 31
0.0
  0
LINE
  5
37
100
AcDbEntity
  8
UNISLIDE
390
0
  6
solid
 62
     3
100
AcDbLine
 10
18.995857
 20
7.299866
 30
0.0
 11
19.003853
 21
7.286011
 31
0.0
  0
LINE
  5
38
100
AcDbEntity
  8
UNISLIDE
390
0
  6
solid
 62
     3
100
AcDbLine
 10
19.003883
 20
7.286034
 30
0.0
 11
18.995857
 21
7.299866
 31
0.0
  0
LINE
  5
39
100
AcDbEntity
  8
UNISLIDE
390
0
  6
solid
 62
     3
100
AcDbLine
 10
18.950188
 20
7.255089
 30
0.0
 11
18.942162
 21
7.269112
 31
0.0
  0
ARC
  5
3A
100
AcDbEntity
  8
UNISLIDE
390
0
  6
solid
 62
     3
100
AcDbCircle
 10
18.977094
 20
7.270507
 30
0.0
 40
0.030998
210
0.0
220
0.0
230
1.0
100
AcDbArc
 50
209.829084
 51
390.090972
  0
ARC
  5
3B
100
AcDbEntity
  8
UNISLIDE
390
0
  6
solid
 62
     3
100
AcDbCircle
 10
19.104857
 20
7.58362
 30
0.0
 40
0.016
210
0.0
220
0.0
230
1.0
100
AcDbArc
 50
269.998106
 51
360.001894
  0
CIRCLE
  5
3C
100
AcDbEntity
  8
UNISLIDE
390
0
  6
solid
 62
     3
100
AcDbCircle
 10
18.995857
 20
9.160622
 30
0.0
 40
0.067999
210
0.0
220
0.0
230
1.0
  0
CIRCLE
  5
3D
100
AcDbEntity
  8
UNISLIDE
390
0
  6
solid
 62
     5
100
AcDbCircle
 10
18.995857
 20
9.160622
 30
0.0
 40
0.081999
210
0.0
220
0.0
230
1.0
  0
CIRCLE
  5
3E
100
AcDbEntity
  8
UNISLIDE
390
0
  6
solid
 62
     3
100
AcDbCircle
 10
18.995857
 20
7.09861
 30
0.0
 40
0.067999
210
0.0
220
0.0
230
1.0
  0
CIRCLE
  5
3F
100
AcDbEntity
  8
UNISLIDE
390
0
  6
solid
 62
     5
100
AcDbCircle
 10
18.995857
 20
7.09861
 30
0.0
 40
0.081999
210
0.0
220
0.0
230
1.0
  0
LINE
  5
40
100
AcDbEntity
  8
UNISLIDE
390
0
  6
solid
 62
     3
100
AcDbLine
 10
19.120857
 20
7.58362
 30
0.0
 11
19.120857
 21
8.675611
 31
0.0
  0
LINE
  5
41
100
AcDbEntity
  8
UNISLIDE
390
0
  6
solid
 62
     3
100
AcDbLine
 10
18.942024
 20
7.269188
 30
0.0
 11
18.645851
 21
7.440178
 31
0.0
  0
LINE
  5
42
100
AcDbEntity
  8
UNISLIDE
390
0
  6
solid
 62
     3
100
AcDbLine
 10
18.645851
 20
8.819054
 30
0.0
 11
18.942162
 21
8.99012
 31
0.0
  0
LINE
  5
43
100
AcDbEntity
  8
UNISLIDE
390
0
  6
solid
 62
     3
100
AcDbLine
 10
18.995857
 20
8.959366
 30
0.0
 11
18.995857
 21
8.691612
 31
0.0
  0
LINE
  5
44
100
AcDbEntity
  8
UNISLIDE
390
0
  6
solid
 62
     3
100
AcDbLine
 10
18.995857
 20
7.299866
 30
0.0
 11
18.995857
 21
7.567619
 31
0.0
  0
LINE
  5
45
100
AcDbEntity
  8
UNISLIDE
390
0
  6
solid
 62
     3
100
AcDbLine
 10
18.995857
 20
7.567619
 30
0.0
 11
19.104856
 21
7.567619
 31
0.0
  0
LINE
  5
46
100
AcDbEntity
  8
UNISLIDE
390
0
  6
solid
 62
     3
100
AcDbLine
 10
18.980858
 20
7.567619
 30
0.0
 11
18.980858
 21
7.264091
 31
0.0
  0
LINE
  5
47
100
AcDbEntity
  8
UNISLIDE
390
0
  6
solid
 62
     3
100
AcDbLine
 10
18.980858
 20
7.264091
 30
0.0
 11
18.558859
 21
7.507729
 31
0.0
  0
LINE
  5
48
100
AcDbEntity
  8
UNISLIDE
390
0
  6
solid
 62
     3
100
AcDbLine
 10
18.558859
 20
7.507729
 30
0.0
 11
18.558859
 21
8.751503
 31
0.0
  0
LINE
  5
49
100
AcDbEntity
  8
UNISLIDE
390
0
  6
solid
 62
     3
100
AcDbLine
 10
18.558859
 20
8.751503
 30
0.0
 11
18.980858
 21
8.99514
 31
0.0
  0
LINE
  5
4A
100
AcDbEntity
  8
UNISLIDE
390
0
  6
solid
 62
     3
100
AcDbLine
 10
18.980858
 20
8.99514
 30
0.0
 11
18.980858
 21
8.691612
 31
0.0
  0
LINE
  5
4B
100
AcDbEntity
  8
UNISLIDE
390
0
  6
solid
 62
     3
100
AcDbLine
 10
18.980858
 20
7.567619
 30
0.0
 11
18.753859
 21
7.698675
 31
0.0
  0
ARC
  5
4C
100
AcDbEntity
  8
UNISLIDE
390
0
  6
solid
 62
     3
100
AcDbCircle
 10
18.761843
 20
7.712524
 30
0.0
 40
0.015986
210
0.0
220
0.0
230
1.0
100
AcDbArc
 50
179.978085
 51
240.035256
  0
LINE
  5
4D
100
AcDbEntity
  8
UNISLIDE
390
0
  6
solid
 62
     3
100
AcDbLine
 10
18.745857
 20
7.71253
 30
0.0
 11
18.745857
 21
8.546701
 31
0.0
  0
ARC
  5
4E
100
AcDbEntity
  8
UNISLIDE
390
0
  6
solid
 62
     3
100
AcDbCircle
 10
18.761843
 20
8.546708
 30
0.0
 40
0.015986
210
0.0
220
0.0
230
1.0
100
AcDbArc
 50
119.964744
 51
180.021915
  0
LINE
  5
4F
100
AcDbEntity
  8
UNISLIDE
390
0
  6
solid
 62
     3
100
AcDbLine
 10
18.980858
 20
8.691612
 30
0.0
 11
18.753859
 21
8.560556
 31
0.0
  0
CIRCLE
  5
50
100
AcDbEntity
  8
UNISLIDE
390
0
  6
solid
 62
     3
100
AcDbCircle
 10
18.805857
 20
8.716503
 30
0.0
 40
0.067999
210
0.0
220
0.0
230
1.0
  0
CIRCLE
  5
51
100
AcDbEntity
  8
UNISLIDE
390
0
  6
solid
 62
     3
100
AcDbCircle
 10
18.805857
 20
8.716503
 30
0.0
 40
0.081999
210
0.0
220
0.0
230
1.0
  0
LINE
  5
52
100
AcDbEntity
  8
UNISLIDE
390
0
  6
solid
 62
     3
100
AcDbLine
 10
18.805857
 20
8.761503
 30
0.0
 11
18.766886
 21
8.739004
 31
0.0
  0
LINE
  5
53
100
AcDbEntity
  8
UNISLIDE
390
0
  6
solid
 62
     3
100
AcDbLine
 10
18.766886
 20
8.694002
 30
0.0
 11
18.805857
 21
8.671503
 31
0.0
  0
LINE
  5
54
100
AcDbEntity
  8
UNISLIDE
390
0
  6
solid
 62
     3
100
AcDbLine
 10
18.805857
 20
8.671503
 30
0.0
 11
18.844828
 21
8.694002
 31
0.0
  0
LINE
  5
55
100
AcDbEntity
  8
UNISLIDE
390
0
  6
solid
 62
     3
100
AcDbLine
 10
18.844828
 20
8.739004
 30
0.0
 11
18.805857
 21
8.761503
 31
0.0
  0
LINE
  5
56
100
AcDbEntity
  8
UNISLIDE
390
0
  6
solid
 62
     3
100
AcDbLine
 10
18.766886
 20
8.739004
 30
0.0
 11
18.766886
 21
8.694002
 31
0.0
  0
LINE
  5
57
100
AcDbEntity
  8
UNISLIDE
390
0
  6
solid
 62
     3
100
AcDbLine
 10
18.844828
 20
8.694002
 30
0.0
 11
18.844828
 21
8.739004
 31
0.0
  0
LINE
  5
58
100
AcDbEntity
  8
UNISLIDE
390
0
  6
solid
 62
     3
100
AcDbLine
 10
18.872183
 20
8.701502
 30
0.0
 11
18.980858
 21
8.701502
 31
0.0
  0
LINE
  5
59
100
AcDbEntity
  8
UNISLIDE
390
0
  6
solid
 62
     3
100
AcDbLine
 10
18.872183
 20
8.731504
 30
0.0
 11
18.980858
 21
8.731504
 31
0.0
  0
LINE
  5
5A
100
AcDbEntity
  8
UNISLIDE
390
0
  6
solid
 62
     3
100
AcDbLine
 10
18.739534
 20
8.701502
 30
0.0
 11
18.558859
 21
8.701502
 31
0.0
  0
LINE
  5
5B
100
AcDbEntity
  8
UNISLIDE
390
0
  6
solid
 62
     3
100
AcDbLine
 10
18.739534
 20
8.731504
 30
0.0
 11
18.558859
 21
8.731504
 31
0.0
  0
LINE
  5
5C
100
AcDbEntity
  8
UNISLIDE
390
0
  6
solid
 62
     3
100
AcDbLine
 10
18.995857
 20
7.567619
 30
0.0
 11
18.980858
 21
7.567619
 31
0.0
  0
LINE
  5
5D
100
AcDbEntity
  8
UNISLIDE
390
0
  6
solid
 62
     3
100
AcDbLine
 10
18.980858
 20
7.567619
 30
0.0
 11
18.980858
 21
7.264091
 31
0.0
  0
LINE
  5
5E
100
AcDbEntity
  8
UNISLIDE
390
0
  6
solid
 62
     3
100
AcDbLine
 10
18.980858
 20
7.264091
 30
0.0
 11
18.604502
 21
7.481382
 31
0.0
  0
LINE
  5
5F
100
AcDbEntity
  8
UNISLIDE
390
0
  6
solid
 62
     3
100
AcDbLine
 10
18.604502
 20
7.481382
 30
0.0
 11
18.596994
 21
7.468382
 31
0.0
  0
LINE
  5
60
100
AcDbEntity
  8
UNISLIDE
390
0
  6
solid
 62
     3
100
AcDbLine
 10
18.995857
 20
7.567619
 30
0.0
 11
18.995857
 21
7.265821
 31
0.0
  0
ARC
  5
61
100
AcDbEntity
  8
UNISLIDE
390
0
  6
solid
 62
     3
100
AcDbCircle
 10
18.979856
 20
7.265824
 30
0.0
 40
0.016001
210
0.0
220
0.0
230
1.0
100
AcDbArc
 50
240.003944
 51
359.990603
  0
LINE
  5
62
100
AcDbEntity
  8
UNISLIDE
390
0
  6
solid
 62
     3
100
AcDbLine
 10
18.596994
 20
7.468382
 30
0.0
 11
18.971857
 21
7.251966
 31
0.0
  0
LINE
  5
63
100
AcDbEntity
  8
UNISLIDE
390
0
  6
solid
 62
     3
100
AcDbLine
 10
18.995857
 20
8.691612
 30
0.0
 11
18.980858
 21
8.691612
 31
0.0
  0
LINE
  5
64
100
AcDbEntity
  8
UNISLIDE
390
0
  6
solid
 62
     3
100
AcDbLine
 10
18.980858
 20
8.691612
 30
0.0
 11
18.980858
 21
8.99514
 31
0.0
  0
LINE
  5
65
100
AcDbEntity
  8
UNISLIDE
390
0
  6
solid
 62
     3
100
AcDbLine
 10
18.995857
 20
8.691612
 30
0.0
 11
18.995857
 21
8.99341
 31
0.0
  0
ARC
  5
66
100
AcDbEntity
  8
UNISLIDE
390
0
  6
solid
 62
     3
100
AcDbCircle
 10
18.979856
 20
8.993407
 30
0.0
 40
0.016001
210
0.0
220
0.0
230
1.0
100
AcDbArc
 50
0.009397
 51
119.996056
  0
LINE
  5
67
100
AcDbEntity
  8
UNISLIDE
390
0
  6
solid
 62
     3
100
AcDbLine
 10
18.604502
 20
8.777849
 30
0.0
 11
18.596994
 21
8.79085
 31
0.0
  0
LINE
  5
68
100
AcDbEntity
  8
UNISLIDE
390
0
  6
solid
 62
     3
100
AcDbLine
 10
18.604502
 20
8.777849
 30
0.0
 11
18.980858
 21
8.99514
 31
0.0
  0
LINE
  5
69
100
AcDbEntity
  8
UNISLIDE
390
0
  6
solid
 62
     3
100
AcDbLine
 10
18.596994
 20
8.79085
 30
0.0
 11
18.971291
 21
9.006922
 31
0.0
  0
LINE
  5
6A
100
AcDbEntity
  8
UNISLIDE
390
0
  6
center
 62
     3
100
AcDbLine
 10
19.230143
 20
7.686616
 30
0.0
 11
19.387851
 21
7.686616
 31
0.0
  0
LINE
  5
6B
100
AcDbEntity
  8
UNISLIDE
390
0
  6
center
 62
     3
100
AcDbLine
 10
19.120857
 20
7.591616
 30
0.0
 11
19.230143
 21
7.686616
 31
0.0
  0
LINE
  5
6C
100
AcDbEntity
  8
UNISLIDE
390
0
  6
center
 62
     3
100
AcDbLine
 10
19.230143
 20
7.886616
 30
0.0
 11
19.387851
 21
7.886616
 31
0.0
  0
LINE
  5
6D
100
AcDbEntity
  8
UNISLIDE
390
0
  6
center
 62
     3
100
AcDbLine
 10
19.120857
 20
7.981616
 30
0.0
 11
19.230143
 21
7.886616
 31
0.0
  0
LINE
  5
6E
100
AcDbEntity
  8
UNISLIDE
390
0
  6
center
 62
     3
100
AcDbLine
 10
19.230143
 20
8.372616
 30
0.0
 11
19.387851
 21
8.372616
 31
0.0
  0
LINE
  5
6F
100
AcDbEntity
  8
UNISLIDE
390
0
  6
center
 62
     3
100
AcDbLine
 10
19.120857
 20
8.277617
 30
0.0
 11
19.230143
 21
8.372616
 31
0.0
  0
LINE
  5
70
100
AcDbEntity
  8
UNISLIDE
390
0
  6
center
 62
     3
100
AcDbLine
 10
19.230143
 20
8.572617
 30
0.0
 11
19.387851
 21
8.572617
 31
0.0
  0
LINE
  5
71
100
AcDbEntity
  8
UNISLIDE
390
0
  6
center
 62
     3
100
AcDbLine
 10
19.120857
 20
8.667616
 30
0.0
 11
19.230143
 21
8.572617
 31
0.0
  0
LINE
  5
72
100
AcDbEntity
  8
UNISLIDE
390
0
  6
center
 62
     3
100
AcDbLine
 10
19.230143
 20
8.372616
 30
0.0
 11
19.230143
 21
8.572617
 31
0.0
  0
LINE
  5
73
100
AcDbEntity
  8
UNISLIDE
390
0
  6
center
 62
     3
100
AcDbLine
 10
19.230143
 20
7.686616
 30
0.0
 11
19.230143
 21
7.886616
 31
0.0
  0
LINE
  5
75
100
AcDbEntity
  8
1
390
0
  6
solid
 62
     3
100
AcDbLine
 10
19.387851
 20
9.379616
 30
0.0
 11
19.387851
 21
6.879616
 31
0.0
  0
LINE
  5
76
100
AcDbEntity
  8
1
390
0
  6
solid
 62
     4
100
AcDbLine
 10
18.558859
 20
8.129616
 30
0.0
 11
19.387851
 21
8.129616
 31
0.0
  0
LINE
  5
77
100
AcDbEntity
  8
1
390
0
  6
solid
 62
     3
100
AcDbLine
 10
22.887851
 20
9.379616
 30
0.0
 11
22.887851
 21
6.879616
 31
0.0
  0
LINE
  5
78
100
AcDbEntity
  8
1
390
0
  6
solid
 62
     5
100
AcDbLine
 10
22.887851
 20
14.129616
 30
0.0
 11
22.887851
 21
2.129616
 31
0.0
  0
LINE
  5
79
100
AcDbEntity
  8
1
390
0
  6
solid
 62
     5
100
AcDbLine
 10
10.887851
 20
14.129616
 30
0.0
 11
22.887851
 21
14.129616
 31
0.0
  0
LINE
  5
7A
100
AcDbEntity
  8
1
390
0
  6
solid
 62
     5
100
AcDbLine
 10
10.887851
 20
2.129616
 30
0.0
 11
22.887851
 21
2.129616
 31
0.0
  0
LINE
  5
7B
100
AcDbEntity
  8
1
390
0
  6
solid
 62
     5
100
AcDbLine
 10
10.887851
 20
14.129616
 30
0.0
 11
10.887851
 21
2.129616
 31
0.0
  0
LINE
  5
7C
100
AcDbEntity
  8
1
390
0
  6
solid
 62
     3
100
AcDbLine
 10
18.645851
 20
6.504616
 30
0.0
 11
22.387851
 21
6.504616
 31
0.0
  0
LINE
  5
7D
100
AcDbEntity
  8
1
390
0
  6
solid
 62
     3
100
AcDbLine
 10
18.645851
 20
9.754616
 30
0.0
 11
22.387851
 21
9.754616
 31
0.0
  0
LINE
  5
7E
100
AcDbEntity
  8
1
390
0
  6
solid
 62
     3
100
AcDbLine
 10
19.387852
 20
9.379616
 30
0.0
 11
22.387851
 21
9.379616
 31
0.0
  0
LINE
  5
7F
100
AcDbEntity
  8
1
390
0
  6
solid
 62
     3
100
AcDbLine
 10
19.387852
 20
6.879616
 30
0.0
 11
22.387851
 21
6.879616
 31
0.0
  0
LINE
  5
80
100
AcDbEntity
  8
1
390
0
  6
solid
 62
     3
100
AcDbLine
 10
22.387852
 20
9.379616
 30
0.0
 11
22.387852
 21
9.754616
 31
0.0
  0
LINE
  5
81
100
AcDbEntity
  8
1
390
0
  6
solid
 62
     3
100
AcDbLine
 10
22.387852
 20
6.879616
 30
0.0
 11
22.387852
 21
6.504616
 31
0.0
  0
LINE
  5
82
100
AcDbEntity
  8
1
390
0
  6
solid
 62
     3
100
AcDbLine
 10
18.645851
 20
9.754616
 30
0.0
 11
18.645851
 21
9.379616
 31
0.0
  0
LINE
  5
83
100
AcDbEntity
  8
1
390
0
  6
solid
 62
     3
100
AcDbLine
 10
18.645851
 20
6.504616
 30
0.0
 11
18.645851
 21
6.879616
 31
0.0
  0
CIRCLE
  5
84
100
AcDbEntity
  8
1
390
0
  6
solid
 62
     5
100
AcDbCircle
 10
21.887851
 20
9.567116
 30
0.0
 40
0.0935
210
0.0
220
0.0
230
1.0
  0
CIRCLE
  5
85
100
AcDbEntity
  8
1
390
0
  6
solid
 62
     5
100
AcDbCircle
 10
19.887851
 20
9.567116
 30
0.0
 40
0.0935
210
0.0
220
0.0
230
1.0
  0
CIRCLE
  5
86
100
AcDbEntity
  8
1
390
0
  6
solid
 62
     5
100
AcDbCircle
 10
19.887851
 20
6.692116
 30
0.0
 40
0.0935
210
0.0
220
0.0
230
1.0
  0
CIRCLE
  5
87
100
AcDbEntity
  8
1
390
0
  6
solid
 62
     5
100
AcDbCircle
 10
21.887851
 20
6.692116
 30
0.0
 40
0.0935
210
0.0
220
0.0
230
1.0
  0
ENDSEC
  0
SECTION
  2
OBJECTS
  0
DICTIONARY
  5
19
100
AcDbDictionary
280
     0
281
     1
  3
ACAD_GROUP
350
1A
  3
ACAD_MLINESTYLE
350
1B
  3
ACAD_LAYOUT
350
1E
  3
ACAD_PLOTSETTINGS
350
22
  3
ACAD_PLOTSTYLENAME
350
1F
  3
ACAD_WIPEOUT_VARS
350
23
  0
DICTIONARY
  5
1A
102
{ACAD_REACTORS
330
19
102
}
100
AcDbDictionary
280
     0
281
     1
  0
DICTIONARY
  5
1B
102
{ACAD_REACTORS
330
19
102
}
100
AcDbDictionary
280
     0
281
     1
  3
Standard
350
1C
  0
MLINESTYLE
  5
1C
102
{ACAD_REACTORS
330
1B
102
}
100
AcDbMlineStyle
  2
Standard
 70
     0
  3

 62
     0
 51
90.0
 52
90.0
 71
     2
 49
0.5
 62
   256
  6
ByLayer
 49
-0.5
 62
   256
  6
ByLayer
  0
ACDBDICTIONARYWDFLT
  5
1F
102
{ACAD_REACTORS
330
19
102
}
100
AcDbDictionary
281
     1
  3
Normal
350
1D
100
AcDbDictionaryWithDefault
340
1D
  0
ACDBPLACEHOLDER
  5
1D
102
{ACAD_REACTORS
330
1F
102
}
  0
LAYOUT
  5
20
102
{ACAD_REACTORS
330
1E
102
}
100
AcDbPlotSettings
  1

  2

  4

  6

 40
0.0
 41
0.0
 42
0.0
 43
0.0
 44
0.0
 45
0.0
 46
0.0
 47
0.0
 48
0.0
 49
0.0
140
0.0
141
0.0
142
1.0
143
1.0
 70
  1024
 72
     0
 73
     0
 74
     0
  7

 75
     0
147
1.0
148
0.0
149
0.0
100
AcDbLayout
  1
Model
 70
     0
 71
     0
 10
0.0
 20
0.0
 11
0.0
 21
0.0
 12
0.0
 22
0.0
 32
0.0
 14
0.0
 24
0.0
 34
0.0
 15
0.0
 25
0.0
 35
0.0
146
0.0
 13
0.0
 23
0.0
 33
0.0
 16
0.0
 26
0.0
 36
0.0
 17
0.0
 27
0.0
 37
0.0
 76
     0
330
A
331
0
345
0
346
0
  0
LAYOUT
  5
21
102
{ACAD_REACTORS
330
1E
102
}
100
AcDbPlotSettings
  1

  2

  4

  6

 40
0.0
 41
0.0
 42
0.0
 43
0.0
 44
0.0
 45
0.0
 46
0.0
 47
0.0
 48
0.0
 49
0.0
140
0.0
141
0.0
142
1.0
143
1.0
 70
     0
 72
     0
 73
     0
 74
     0
  7

 75
     0
147
1.0
148
0.0
149
0.0
100
AcDbLayout
  1
Layout1
 70
     0
 71
     0
 10
0.0
 20
0.0
 11
0.0
 21
0.0
 12
0.0
 22
0.0
 32
0.0
 14
0.0
 24
0.0
 34
0.0
 15
0.0
 25
0.0
 35
0.0
146
0.0
 13
0.0
 23
0.0
 33
0.0
 16
0.0
 26
0.0
 36
0.0
 17
0.0
 27
0.0
 37
0.0
 76
     0
330
B
331
0
345
0
346
0
  0
DICTIONARY
  5
1E
102
{ACAD_REACTORS
330
19
102
}
100
AcDbDictionary
280
     0
281
     1
  3
Layout1
350
21
  3
Model
350
20
  0
DICTIONARY
  5
22
102
{ACAD_REACTORS
330
19
102
}
100
AcDbDictionary
280
     0
281
     1
  0
WIPEOUTVARIABLES
  5
23
100
AcDbWipeoutVariables
 70
     1
  0
ENDSEC
  0
EOF
